ISO-10303-21;
HEADER;
/* Generated by software containing ST-Developer
 * from STEP Tools, Inc. (www.steptools.com) 
 */

FILE_DESCRIPTION(
/* description */ (''),
/* implementation_level */ '2;1');

FILE_NAME(
/* name */ '\\\\SERVER1\\dwgs\\product\\Screws\\13571.stp',
/* time_stamp */ '2016-10-24T09:08:01-04:00',
/* author */ ('tsmith'),
/* organization */ (''),
/* preprocessor_version */ 'ST-DEVELOPER v15.6',
/* originating_system */ 'Autodesk Inventor 2015',
/* authorisation */ '');

FILE_SCHEMA (('AUTOMOTIVE_DESIGN { 1 0 10303 214 3 1 1 }'));
ENDSEC;

DATA;
#10=MECHANICAL_DESIGN_GEOMETRIC_PRESENTATION_REPRESENTATION('',(#13),#437);
#11=SHAPE_REPRESENTATION_RELATIONSHIP('SRR','None',#449,#12);
#12=ADVANCED_BREP_SHAPE_REPRESENTATION($,(#14),#436);
#13=STYLED_ITEM('',(#458),#14);
#14=MANIFOLD_SOLID_BREP('Solid1',#253);
#15=LINE('',#407,#27);
#16=LINE('',#409,#28);
#17=LINE('',#410,#29);
#18=LINE('',#413,#30);
#19=LINE('',#414,#31);
#20=LINE('',#417,#32);
#21=LINE('',#418,#33);
#22=LINE('',#425,#34);
#23=LINE('',#426,#35);
#24=LINE('',#429,#36);
#25=LINE('',#430,#37);
#26=LINE('',#432,#38);
#27=VECTOR('',#323,0.364196612828741);
#28=VECTOR('',#324,0.181287984525542);
#29=VECTOR('',#325,0.364196612828741);
#30=VECTOR('',#328,0.364196612828741);
#31=VECTOR('',#329,0.181287984525543);
#32=VECTOR('',#332,0.364196612828741);
#33=VECTOR('',#333,0.181287984525542);
#34=VECTOR('',#342,0.364196612828741);
#35=VECTOR('',#343,0.181287984525542);
#36=VECTOR('',#346,0.364196612828741);
#37=VECTOR('',#347,0.181287984525542);
#38=VECTOR('',#350,0.181287984525542);
#39=(
BOUNDED_CURVE()
B_SPLINE_CURVE(2,(#381,#382,#383),.UNSPECIFIED.,.F.,.F.)
B_SPLINE_CURVE_WITH_KNOTS((3,3),(0.0731587236468076,0.568759799947373),
 .UNSPECIFIED.)
CURVE()
GEOMETRIC_REPRESENTATION_ITEM()
RATIONAL_B_SPLINE_CURVE((1.0553138637209,1.21857148659757,1.0553138637209))
REPRESENTATION_ITEM('')
);
#40=(
BOUNDED_CURVE()
B_SPLINE_CURVE(2,(#385,#386,#387),.UNSPECIFIED.,.F.,.F.)
B_SPLINE_CURVE_WITH_KNOTS((3,3),(0.073158723646808,0.568759799947373),
 .UNSPECIFIED.)
CURVE()
GEOMETRIC_REPRESENTATION_ITEM()
RATIONAL_B_SPLINE_CURVE((1.0553138637209,1.21857148659757,1.0553138637209))
REPRESENTATION_ITEM('')
);
#41=(
BOUNDED_CURVE()
B_SPLINE_CURVE(2,(#389,#390,#391),.UNSPECIFIED.,.F.,.F.)
B_SPLINE_CURVE_WITH_KNOTS((3,3),(0.0731587236468083,0.568759799947374),
 .UNSPECIFIED.)
CURVE()
GEOMETRIC_REPRESENTATION_ITEM()
RATIONAL_B_SPLINE_CURVE((1.0553138637209,1.21857148659757,1.0553138637209))
REPRESENTATION_ITEM('')
);
#42=(
BOUNDED_CURVE()
B_SPLINE_CURVE(2,(#393,#394,#395),.UNSPECIFIED.,.F.,.F.)
B_SPLINE_CURVE_WITH_KNOTS((3,3),(0.0731587236468081,0.568759799947374),
 .UNSPECIFIED.)
CURVE()
GEOMETRIC_REPRESENTATION_ITEM()
RATIONAL_B_SPLINE_CURVE((1.0553138637209,1.21857148659757,1.0553138637209))
REPRESENTATION_ITEM('')
);
#43=(
BOUNDED_CURVE()
B_SPLINE_CURVE(2,(#397,#398,#399),.UNSPECIFIED.,.F.,.F.)
B_SPLINE_CURVE_WITH_KNOTS((3,3),(0.0731587236468081,0.568759799947374),
 .UNSPECIFIED.)
CURVE()
GEOMETRIC_REPRESENTATION_ITEM()
RATIONAL_B_SPLINE_CURVE((1.0553138637209,1.21857148659757,1.0553138637209))
REPRESENTATION_ITEM('')
);
#44=(
BOUNDED_CURVE()
B_SPLINE_CURVE(2,(#400,#401,#402),.UNSPECIFIED.,.F.,.F.)
B_SPLINE_CURVE_WITH_KNOTS((3,3),(0.0731587236468076,0.568759799947373),
 .UNSPECIFIED.)
CURVE()
GEOMETRIC_REPRESENTATION_ITEM()
RATIONAL_B_SPLINE_CURVE((1.0553138637209,1.21857148659757,1.0553138637209))
REPRESENTATION_ITEM('')
);
#45=SPHERICAL_SURFACE('',#268,0.188);
#46=CYLINDRICAL_SURFACE('',#260,0.3125);
#47=PLANE('',#258);
#48=PLANE('',#267);
#49=PLANE('',#270);
#50=PLANE('',#273);
#51=PLANE('',#274);
#52=PLANE('',#275);
#53=PLANE('',#278);
#54=PLANE('',#279);
#55=PLANE('',#280);
#56=PLANE('',#281);
#57=PLANE('',#282);
#58=FACE_BOUND('',#87,.T.);
#59=FACE_BOUND('',#89,.T.);
#60=FACE_BOUND('',#91,.T.);
#61=FACE_BOUND('',#93,.T.);
#62=FACE_BOUND('',#95,.T.);
#63=FACE_BOUND('',#97,.T.);
#64=FACE_BOUND('',#100,.T.);
#65=FACE_BOUND('',#102,.T.);
#66=FACE_BOUND('',#107,.T.);
#67=FACE_BOUND('',#109,.T.);
#68=FACE_OUTER_BOUND('',#86,.T.);
#69=FACE_OUTER_BOUND('',#88,.T.);
#70=FACE_OUTER_BOUND('',#90,.T.);
#71=FACE_OUTER_BOUND('',#92,.T.);
#72=FACE_OUTER_BOUND('',#94,.T.);
#73=FACE_OUTER_BOUND('',#96,.T.);
#74=FACE_OUTER_BOUND('',#98,.T.);
#75=FACE_OUTER_BOUND('',#99,.T.);
#76=FACE_OUTER_BOUND('',#101,.T.);
#77=FACE_OUTER_BOUND('',#103,.T.);
#78=FACE_OUTER_BOUND('',#104,.T.);
#79=FACE_OUTER_BOUND('',#105,.T.);
#80=FACE_OUTER_BOUND('',#106,.T.);
#81=FACE_OUTER_BOUND('',#108,.T.);
#82=FACE_OUTER_BOUND('',#110,.T.);
#83=FACE_OUTER_BOUND('',#111,.T.);
#84=FACE_OUTER_BOUND('',#112,.T.);
#85=FACE_OUTER_BOUND('',#113,.T.);
#86=EDGE_LOOP('',(#174));
#87=EDGE_LOOP('',(#175));
#88=EDGE_LOOP('',(#176));
#89=EDGE_LOOP('',(#177));
#90=EDGE_LOOP('',(#178));
#91=EDGE_LOOP('',(#179));
#92=EDGE_LOOP('',(#180));
#93=EDGE_LOOP('',(#181));
#94=EDGE_LOOP('',(#182));
#95=EDGE_LOOP('',(#183));
#96=EDGE_LOOP('',(#184));
#97=EDGE_LOOP('',(#185));
#98=EDGE_LOOP('',(#186));
#99=EDGE_LOOP('',(#187));
#100=EDGE_LOOP('',(#188));
#101=EDGE_LOOP('',(#189,#190,#191,#192,#193,#194));
#102=EDGE_LOOP('',(#195));
#103=EDGE_LOOP('',(#196,#197,#198,#199));
#104=EDGE_LOOP('',(#200,#201,#202,#203));
#105=EDGE_LOOP('',(#204,#205,#206,#207));
#106=EDGE_LOOP('',(#208));
#107=EDGE_LOOP('',(#209));
#108=EDGE_LOOP('',(#210));
#109=EDGE_LOOP('',(#211));
#110=EDGE_LOOP('',(#212,#213,#214,#215));
#111=EDGE_LOOP('',(#216,#217,#218,#219));
#112=EDGE_LOOP('',(#220,#221,#222,#223));
#113=EDGE_LOOP('',(#224,#225,#226,#227,#228,#229));
#114=CIRCLE('',#256,0.2825);
#115=CIRCLE('',#257,0.3125);
#116=CIRCLE('',#259,0.2175);
#117=CIRCLE('',#261,0.3125);
#118=CIRCLE('',#263,0.1875);
#119=CIRCLE('',#265,0.1675);
#120=CIRCLE('',#266,0.1375);
#121=CIRCLE('',#269,0.1018822850156);
#122=CIRCLE('',#272,0.2);
#123=CIRCLE('',#277,0.2815);
#124=VERTEX_POINT('',#355);
#125=VERTEX_POINT('',#357);
#126=VERTEX_POINT('',#360);
#127=VERTEX_POINT('',#363);
#128=VERTEX_POINT('',#366);
#129=VERTEX_POINT('',#369);
#130=VERTEX_POINT('',#371);
#131=VERTEX_POINT('',#375);
#132=VERTEX_POINT('',#379);
#133=VERTEX_POINT('',#380);
#134=VERTEX_POINT('',#384);
#135=VERTEX_POINT('',#388);
#136=VERTEX_POINT('',#392);
#137=VERTEX_POINT('',#396);
#138=VERTEX_POINT('',#403);
#139=VERTEX_POINT('',#406);
#140=VERTEX_POINT('',#408);
#141=VERTEX_POINT('',#412);
#142=VERTEX_POINT('',#416);
#143=VERTEX_POINT('',#420);
#144=VERTEX_POINT('',#424);
#145=VERTEX_POINT('',#428);
#146=EDGE_CURVE('',#124,#124,#114,.T.);
#147=EDGE_CURVE('',#125,#125,#115,.T.);
#148=EDGE_CURVE('',#126,#126,#116,.T.);
#149=EDGE_CURVE('',#127,#127,#117,.T.);
#150=EDGE_CURVE('',#128,#128,#118,.T.);
#151=EDGE_CURVE('',#129,#129,#119,.T.);
#152=EDGE_CURVE('',#130,#130,#120,.T.);
#153=EDGE_CURVE('',#131,#131,#121,.T.);
#154=EDGE_CURVE('',#132,#133,#39,.T.);
#155=EDGE_CURVE('',#134,#132,#40,.T.);
#156=EDGE_CURVE('',#135,#134,#41,.T.);
#157=EDGE_CURVE('',#136,#135,#42,.T.);
#158=EDGE_CURVE('',#137,#136,#43,.T.);
#159=EDGE_CURVE('',#133,#137,#44,.T.);
#160=EDGE_CURVE('',#138,#138,#122,.T.);
#161=EDGE_CURVE('',#135,#139,#15,.T.);
#162=EDGE_CURVE('',#140,#139,#16,.T.);
#163=EDGE_CURVE('',#136,#140,#17,.T.);
#164=EDGE_CURVE('',#134,#141,#18,.T.);
#165=EDGE_CURVE('',#139,#141,#19,.T.);
#166=EDGE_CURVE('',#132,#142,#20,.T.);
#167=EDGE_CURVE('',#141,#142,#21,.T.);
#168=EDGE_CURVE('',#143,#143,#123,.T.);
#169=EDGE_CURVE('',#133,#144,#22,.T.);
#170=EDGE_CURVE('',#142,#144,#23,.T.);
#171=EDGE_CURVE('',#137,#145,#24,.T.);
#172=EDGE_CURVE('',#144,#145,#25,.T.);
#173=EDGE_CURVE('',#145,#140,#26,.T.);
#174=ORIENTED_EDGE('',*,*,#146,.T.);
#175=ORIENTED_EDGE('',*,*,#147,.T.);
#176=ORIENTED_EDGE('',*,*,#146,.F.);
#177=ORIENTED_EDGE('',*,*,#148,.F.);
#178=ORIENTED_EDGE('',*,*,#149,.F.);
#179=ORIENTED_EDGE('',*,*,#147,.F.);
#180=ORIENTED_EDGE('',*,*,#148,.T.);
#181=ORIENTED_EDGE('',*,*,#150,.F.);
#182=ORIENTED_EDGE('',*,*,#151,.T.);
#183=ORIENTED_EDGE('',*,*,#152,.F.);
#184=ORIENTED_EDGE('',*,*,#150,.T.);
#185=ORIENTED_EDGE('',*,*,#151,.F.);
#186=ORIENTED_EDGE('',*,*,#153,.T.);
#187=ORIENTED_EDGE('',*,*,#152,.T.);
#188=ORIENTED_EDGE('',*,*,#153,.F.);
#189=ORIENTED_EDGE('',*,*,#154,.F.);
#190=ORIENTED_EDGE('',*,*,#155,.F.);
#191=ORIENTED_EDGE('',*,*,#156,.F.);
#192=ORIENTED_EDGE('',*,*,#157,.F.);
#193=ORIENTED_EDGE('',*,*,#158,.F.);
#194=ORIENTED_EDGE('',*,*,#159,.F.);
#195=ORIENTED_EDGE('',*,*,#160,.F.);
#196=ORIENTED_EDGE('',*,*,#157,.T.);
#197=ORIENTED_EDGE('',*,*,#161,.T.);
#198=ORIENTED_EDGE('',*,*,#162,.F.);
#199=ORIENTED_EDGE('',*,*,#163,.F.);
#200=ORIENTED_EDGE('',*,*,#156,.T.);
#201=ORIENTED_EDGE('',*,*,#164,.T.);
#202=ORIENTED_EDGE('',*,*,#165,.F.);
#203=ORIENTED_EDGE('',*,*,#161,.F.);
#204=ORIENTED_EDGE('',*,*,#155,.T.);
#205=ORIENTED_EDGE('',*,*,#166,.T.);
#206=ORIENTED_EDGE('',*,*,#167,.F.);
#207=ORIENTED_EDGE('',*,*,#164,.F.);
#208=ORIENTED_EDGE('',*,*,#168,.T.);
#209=ORIENTED_EDGE('',*,*,#149,.T.);
#210=ORIENTED_EDGE('',*,*,#168,.F.);
#211=ORIENTED_EDGE('',*,*,#160,.T.);
#212=ORIENTED_EDGE('',*,*,#154,.T.);
#213=ORIENTED_EDGE('',*,*,#169,.T.);
#214=ORIENTED_EDGE('',*,*,#170,.F.);
#215=ORIENTED_EDGE('',*,*,#166,.F.);
#216=ORIENTED_EDGE('',*,*,#159,.T.);
#217=ORIENTED_EDGE('',*,*,#171,.T.);
#218=ORIENTED_EDGE('',*,*,#172,.F.);
#219=ORIENTED_EDGE('',*,*,#169,.F.);
#220=ORIENTED_EDGE('',*,*,#158,.T.);
#221=ORIENTED_EDGE('',*,*,#163,.T.);
#222=ORIENTED_EDGE('',*,*,#173,.F.);
#223=ORIENTED_EDGE('',*,*,#171,.F.);
#224=ORIENTED_EDGE('',*,*,#170,.T.);
#225=ORIENTED_EDGE('',*,*,#172,.T.);
#226=ORIENTED_EDGE('',*,*,#173,.T.);
#227=ORIENTED_EDGE('',*,*,#162,.T.);
#228=ORIENTED_EDGE('',*,*,#165,.T.);
#229=ORIENTED_EDGE('',*,*,#167,.T.);
#230=CONICAL_SURFACE('',#255,0.2975,45.);
#231=CONICAL_SURFACE('',#262,0.2025,45.);
#232=CONICAL_SURFACE('',#264,0.1525,45.);
#233=CONICAL_SURFACE('',#271,0.1,60.);
#234=CONICAL_SURFACE('',#276,0.297,45.);
#235=ADVANCED_FACE('',(#68,#58),#230,.T.);
#236=ADVANCED_FACE('',(#69,#59),#47,.F.);
#237=ADVANCED_FACE('',(#70,#60),#46,.T.);
#238=ADVANCED_FACE('',(#71,#61),#231,.T.);
#239=ADVANCED_FACE('',(#72,#62),#232,.T.);
#240=ADVANCED_FACE('',(#73,#63),#48,.F.);
#241=ADVANCED_FACE('',(#74),#45,.T.);
#242=ADVANCED_FACE('',(#75,#64),#49,.F.);
#243=ADVANCED_FACE('',(#76,#65),#233,.F.);
#244=ADVANCED_FACE('',(#77),#50,.F.);
#245=ADVANCED_FACE('',(#78),#51,.F.);
#246=ADVANCED_FACE('',(#79),#52,.F.);
#247=ADVANCED_FACE('',(#80,#66),#234,.T.);
#248=ADVANCED_FACE('',(#81,#67),#53,.F.);
#249=ADVANCED_FACE('',(#82),#54,.F.);
#250=ADVANCED_FACE('',(#83),#55,.F.);
#251=ADVANCED_FACE('',(#84),#56,.F.);
#252=ADVANCED_FACE('',(#85),#57,.T.);
#253=CLOSED_SHELL('',(#235,#236,#237,#238,#239,#240,#241,#242,#243,#244,
#245,#246,#247,#248,#249,#250,#251,#252));
#254=AXIS2_PLACEMENT_3D('placement',#353,#283,#284);
#255=AXIS2_PLACEMENT_3D('',#354,#285,#286);
#256=AXIS2_PLACEMENT_3D('',#356,#287,#288);
#257=AXIS2_PLACEMENT_3D('',#358,#289,#290);
#258=AXIS2_PLACEMENT_3D('',#359,#291,#292);
#259=AXIS2_PLACEMENT_3D('',#361,#293,#294);
#260=AXIS2_PLACEMENT_3D('',#362,#295,#296);
#261=AXIS2_PLACEMENT_3D('',#364,#297,#298);
#262=AXIS2_PLACEMENT_3D('',#365,#299,#300);
#263=AXIS2_PLACEMENT_3D('',#367,#301,#302);
#264=AXIS2_PLACEMENT_3D('',#368,#303,#304);
#265=AXIS2_PLACEMENT_3D('',#370,#305,#306);
#266=AXIS2_PLACEMENT_3D('',#372,#307,#308);
#267=AXIS2_PLACEMENT_3D('',#373,#309,#310);
#268=AXIS2_PLACEMENT_3D('',#374,#311,#312);
#269=AXIS2_PLACEMENT_3D('',#376,#313,#314);
#270=AXIS2_PLACEMENT_3D('',#377,#315,#316);
#271=AXIS2_PLACEMENT_3D('',#378,#317,#318);
#272=AXIS2_PLACEMENT_3D('',#404,#319,#320);
#273=AXIS2_PLACEMENT_3D('',#405,#321,#322);
#274=AXIS2_PLACEMENT_3D('',#411,#326,#327);
#275=AXIS2_PLACEMENT_3D('',#415,#330,#331);
#276=AXIS2_PLACEMENT_3D('',#419,#334,#335);
#277=AXIS2_PLACEMENT_3D('',#421,#336,#337);
#278=AXIS2_PLACEMENT_3D('',#422,#338,#339);
#279=AXIS2_PLACEMENT_3D('',#423,#340,#341);
#280=AXIS2_PLACEMENT_3D('',#427,#344,#345);
#281=AXIS2_PLACEMENT_3D('',#431,#348,#349);
#282=AXIS2_PLACEMENT_3D('',#433,#351,#352);
#283=DIRECTION('axis',(0.,0.,1.));
#284=DIRECTION('refdir',(1.,0.,0.));
#285=DIRECTION('center_axis',(0.,0.,1.));
#286=DIRECTION('ref_axis',(-1.,0.,0.));
#287=DIRECTION('center_axis',(0.,0.,1.));
#288=DIRECTION('ref_axis',(-1.,0.,0.));
#289=DIRECTION('center_axis',(0.,0.,-1.));
#290=DIRECTION('ref_axis',(-1.,0.,0.));
#291=DIRECTION('center_axis',(0.,0.,1.));
#292=DIRECTION('ref_axis',(1.,0.,0.));
#293=DIRECTION('center_axis',(0.,0.,-1.));
#294=DIRECTION('ref_axis',(-1.,0.,0.));
#295=DIRECTION('center_axis',(0.,0.,-1.));
#296=DIRECTION('ref_axis',(-1.,0.,0.));
#297=DIRECTION('center_axis',(0.,0.,1.));
#298=DIRECTION('ref_axis',(-1.,0.,0.));
#299=DIRECTION('center_axis',(0.,0.,1.));
#300=DIRECTION('ref_axis',(-1.,0.,0.));
#301=DIRECTION('center_axis',(0.,0.,-1.));
#302=DIRECTION('ref_axis',(1.,0.,0.));
#303=DIRECTION('center_axis',(0.,0.,1.));
#304=DIRECTION('ref_axis',(-1.,0.,0.));
#305=DIRECTION('center_axis',(0.,0.,-1.));
#306=DIRECTION('ref_axis',(-1.,0.,0.));
#307=DIRECTION('center_axis',(0.,0.,-1.));
#308=DIRECTION('ref_axis',(1.,0.,0.));
#309=DIRECTION('center_axis',(0.,0.,1.));
#310=DIRECTION('ref_axis',(1.,0.,0.));
#311=DIRECTION('center_axis',(6.12323399573677E-17,0.,1.));
#312=DIRECTION('ref_axis',(1.,0.,0.));
#313=DIRECTION('center_axis',(0.,0.,-1.));
#314=DIRECTION('ref_axis',(1.,0.,0.));
#315=DIRECTION('center_axis',(0.,0.,1.));
#316=DIRECTION('ref_axis',(1.,0.,0.));
#317=DIRECTION('center_axis',(2.49828871752296E-16,0.,1.));
#318=DIRECTION('ref_axis',(-1.,0.,0.));
#319=DIRECTION('center_axis',(0.,0.,-1.));
#320=DIRECTION('ref_axis',(-1.,0.,0.));
#321=DIRECTION('center_axis',(1.,-3.6165856231197E-16,0.));
#322=DIRECTION('ref_axis',(0.,0.,-1.));
#323=DIRECTION('',(0.,0.,-1.));
#324=DIRECTION('',(3.6165856231197E-16,1.,0.));
#325=DIRECTION('',(0.,0.,-1.));
#326=DIRECTION('center_axis',(0.5,0.866025403784438,0.));
#327=DIRECTION('ref_axis',(0.,0.,-1.));
#328=DIRECTION('',(0.,0.,-1.));
#329=DIRECTION('',(-0.866025403784438,0.5,0.));
#330=DIRECTION('center_axis',(-0.5,0.866025403784439,0.));
#331=DIRECTION('ref_axis',(0.,0.,1.));
#332=DIRECTION('',(0.,0.,-1.));
#333=DIRECTION('',(-0.866025403784439,-0.5,0.));
#334=DIRECTION('center_axis',(0.,0.,-1.));
#335=DIRECTION('ref_axis',(-1.,0.,0.));
#336=DIRECTION('center_axis',(0.,0.,-1.));
#337=DIRECTION('ref_axis',(-1.,0.,0.));
#338=DIRECTION('center_axis',(0.,0.,-1.));
#339=DIRECTION('ref_axis',(-1.,0.,0.));
#340=DIRECTION('center_axis',(-1.,2.4110570820798E-16,0.));
#341=DIRECTION('ref_axis',(0.,0.,1.));
#342=DIRECTION('',(0.,0.,-1.));
#343=DIRECTION('',(-2.4110570820798E-16,-1.,0.));
#344=DIRECTION('center_axis',(-0.5,-0.866025403784438,0.));
#345=DIRECTION('ref_axis',(0.,0.,1.));
#346=DIRECTION('',(0.,0.,-1.));
#347=DIRECTION('',(0.866025403784438,-0.5,0.));
#348=DIRECTION('center_axis',(0.5,-0.866025403784439,0.));
#349=DIRECTION('ref_axis',(0.,0.,-1.));
#350=DIRECTION('',(0.866025403784439,0.5,0.));
#351=DIRECTION('center_axis',(0.,0.,1.));
#352=DIRECTION('ref_axis',(1.,0.,0.));
#353=CARTESIAN_POINT('',(0.,0.,0.));
#354=CARTESIAN_POINT('Origin',(0.,0.,-0.645));
#355=CARTESIAN_POINT('',(0.2825,3.45962720759127E-17,-0.66));
#356=CARTESIAN_POINT('Origin',(0.,0.,-0.66));
#357=CARTESIAN_POINT('',(0.3125,-3.82702124733548E-17,-0.63));
#358=CARTESIAN_POINT('Origin',(0.,0.,-0.63));
#359=CARTESIAN_POINT('Origin',(0.3125,0.,-0.66));
#360=CARTESIAN_POINT('',(0.2175,-2.66360678814549E-17,-0.66));
#361=CARTESIAN_POINT('Origin',(0.,0.,-0.66));
#362=CARTESIAN_POINT('Origin',(0.,0.,0.));
#363=CARTESIAN_POINT('',(0.3125,3.82702124733548E-17,-0.031));
#364=CARTESIAN_POINT('Origin',(0.,0.,-0.031));
#365=CARTESIAN_POINT('Origin',(0.,0.,-0.675));
#366=CARTESIAN_POINT('',(0.1875,0.,-0.69));
#367=CARTESIAN_POINT('Origin',(0.,0.,-0.69));
#368=CARTESIAN_POINT('Origin',(0.,0.,-0.705));
#369=CARTESIAN_POINT('',(0.1675,-2.05128338857182E-17,-0.69));
#370=CARTESIAN_POINT('Origin',(0.,0.,-0.69));
#371=CARTESIAN_POINT('',(0.1375,0.,-0.72));
#372=CARTESIAN_POINT('Origin',(0.,0.,-0.72));
#373=CARTESIAN_POINT('Origin',(0.3125,0.,-0.69));
#374=CARTESIAN_POINT('Origin',(0.,0.,-0.562));
#375=CARTESIAN_POINT('',(0.1018822850156,0.,-0.72));
#376=CARTESIAN_POINT('Origin',(0.,0.,-0.72));
#377=CARTESIAN_POINT('Origin',(0.3125,0.,-0.72));
#378=CARTESIAN_POINT('Origin',(-1.44238766357529E-17,0.,-0.0577350269189626));
#379=CARTESIAN_POINT('',(-0.157,0.0906439922627712,-0.0108033871712585));
#380=CARTESIAN_POINT('',(-0.157,-0.0906439922627712,-0.0108033871712585));
#381=CARTESIAN_POINT('Ctrl Pts',(-0.157,0.0906439922627712,-0.0108033871712585));
#382=CARTESIAN_POINT('Ctrl Pts',(-0.157,1.43012242468324E-15,-0.0369700538379219));
#383=CARTESIAN_POINT('Ctrl Pts',(-0.157,-0.0906439922627712,-0.0108033871712585));
#384=CARTESIAN_POINT('',(6.28014139571842E-18,0.181287984525542,-0.0108033871712585));
#385=CARTESIAN_POINT('Ctrl Pts',(6.28014139571842E-18,0.181287984525542,
-0.0108033871712585));
#386=CARTESIAN_POINT('Ctrl Pts',(-0.0784999999999987,0.135965988394158,
-0.0369700538379219));
#387=CARTESIAN_POINT('Ctrl Pts',(-0.157,0.0906439922627712,-0.0108033871712585));
#388=CARTESIAN_POINT('',(0.157,0.0906439922627711,-0.0108033871712586));
#389=CARTESIAN_POINT('Ctrl Pts',(0.157,0.0906439922627711,-0.0108033871712586));
#390=CARTESIAN_POINT('Ctrl Pts',(0.0785000000000012,0.135965988394156,-0.0369700538379219));
#391=CARTESIAN_POINT('Ctrl Pts',(6.28014139571842E-18,0.181287984525542,
-0.0108033871712585));
#392=CARTESIAN_POINT('',(0.157,-0.0906439922627714,-0.0108033871712586));
#393=CARTESIAN_POINT('Ctrl Pts',(0.157,-0.0906439922627714,-0.0108033871712586));
#394=CARTESIAN_POINT('Ctrl Pts',(0.157,-1.5516896604013E-15,-0.0369700538379219));
#395=CARTESIAN_POINT('Ctrl Pts',(0.157,0.0906439922627711,-0.0108033871712586));
#396=CARTESIAN_POINT('',(-1.04495540463936E-16,-0.181287984525543,-0.0108033871712585));
#397=CARTESIAN_POINT('Ctrl Pts',(-1.04495540463936E-16,-0.181287984525543,
-0.0108033871712585));
#398=CARTESIAN_POINT('Ctrl Pts',(0.0784999999999986,-0.135965988394158,
-0.0369700538379219));
#399=CARTESIAN_POINT('Ctrl Pts',(0.157,-0.0906439922627714,-0.0108033871712586));
#400=CARTESIAN_POINT('Ctrl Pts',(-0.157,-0.0906439922627712,-0.0108033871712585));
#401=CARTESIAN_POINT('Ctrl Pts',(-0.0785000000000014,-0.135965988394156,
-0.0369700538379218));
#402=CARTESIAN_POINT('Ctrl Pts',(-1.04495540463936E-16,-0.181287984525543,
-0.0108033871712585));
#403=CARTESIAN_POINT('',(-0.2,0.,0.));
#404=CARTESIAN_POINT('Origin',(0.,0.,0.));
#405=CARTESIAN_POINT('Origin',(0.157,-0.0906439922627714,0.));
#406=CARTESIAN_POINT('',(0.157,0.0906439922627711,-0.375));
#407=CARTESIAN_POINT('',(0.157,0.0906439922627711,0.));
#408=CARTESIAN_POINT('',(0.157,-0.0906439922627714,-0.375));
#409=CARTESIAN_POINT('',(0.157,0.0906439922627711,-0.375));
#410=CARTESIAN_POINT('',(0.157,-0.0906439922627714,0.));
#411=CARTESIAN_POINT('Origin',(0.157,0.0906439922627711,0.));
#412=CARTESIAN_POINT('',(6.28014139571842E-18,0.181287984525542,-0.375));
#413=CARTESIAN_POINT('',(6.28014139571842E-18,0.181287984525542,0.));
#414=CARTESIAN_POINT('',(6.28014139571842E-18,0.181287984525542,-0.375));
#415=CARTESIAN_POINT('Origin',(6.28014139571842E-18,0.181287984525542,0.));
#416=CARTESIAN_POINT('',(-0.157,0.0906439922627712,-0.375));
#417=CARTESIAN_POINT('',(-0.157,0.0906439922627712,0.));
#418=CARTESIAN_POINT('',(-0.157,0.0906439922627712,-0.375));
#419=CARTESIAN_POINT('Origin',(0.,0.,-0.0155));
#420=CARTESIAN_POINT('',(0.2815,-3.4473807395998E-17,0.));
#421=CARTESIAN_POINT('Origin',(0.,0.,0.));
#422=CARTESIAN_POINT('Origin',(0.,0.,0.));
#423=CARTESIAN_POINT('Origin',(-0.157,0.0906439922627712,0.));
#424=CARTESIAN_POINT('',(-0.157,-0.0906439922627712,-0.375));
#425=CARTESIAN_POINT('',(-0.157,-0.0906439922627712,0.));
#426=CARTESIAN_POINT('',(-0.157,-0.0906439922627712,-0.375));
#427=CARTESIAN_POINT('Origin',(-0.157,-0.0906439922627712,0.));
#428=CARTESIAN_POINT('',(-1.04495540463936E-16,-0.181287984525543,-0.375));
#429=CARTESIAN_POINT('',(-1.04495540463936E-16,-0.181287984525543,0.));
#430=CARTESIAN_POINT('',(-1.04495540463936E-16,-0.181287984525543,-0.375));
#431=CARTESIAN_POINT('Origin',(-1.04495540463936E-16,-0.181287984525543,
0.));
#432=CARTESIAN_POINT('',(0.157,-0.0906439922627714,-0.375));
#433=CARTESIAN_POINT('Origin',(-2.18547839493141E-17,-6.05145722232902E-17,
-0.375));
#434=UNCERTAINTY_MEASURE_WITH_UNIT(LENGTH_MEASURE(0.000393700787401575),
#438,'DISTANCE_ACCURACY_VALUE',
'Maximum model space distance between geometric entities at asserted c
onnectivities');
#435=UNCERTAINTY_MEASURE_WITH_UNIT(LENGTH_MEASURE(1.E-6),#439,
'DISTANCE_ACCURACY_VALUE',
'Maximum model space distance between geometric entities at asserted c
onnectivities');
#436=(
GEOMETRIC_REPRESENTATION_CONTEXT(3)
GLOBAL_UNCERTAINTY_ASSIGNED_CONTEXT((#434))
GLOBAL_UNIT_ASSIGNED_CONTEXT((#438,#444,#441))
REPRESENTATION_CONTEXT('','3D')
);
#437=(
GEOMETRIC_REPRESENTATION_CONTEXT(3)
GLOBAL_UNCERTAINTY_ASSIGNED_CONTEXT((#435))
GLOBAL_UNIT_ASSIGNED_CONTEXT((#439,#444,#441))
REPRESENTATION_CONTEXT('','3D')
);
#438=(
CONVERSION_BASED_UNIT('__CONSTANT UNIT inch',#440)
LENGTH_UNIT()
NAMED_UNIT(#443)
);
#439=(
LENGTH_UNIT()
NAMED_UNIT(*)
SI_UNIT(.MILLI.,.METRE.)
);
#440=LENGTH_MEASURE_WITH_UNIT(LENGTH_MEASURE(25.4),#439);
#441=(
NAMED_UNIT(*)
SI_UNIT($,.STERADIAN.)
SOLID_ANGLE_UNIT()
);
#442=DIMENSIONAL_EXPONENTS(0.,0.,0.,0.,0.,0.,0.);
#443=DIMENSIONAL_EXPONENTS(1.,0.,0.,0.,0.,0.,0.);
#444=(
CONVERSION_BASED_UNIT('degree',#446)
NAMED_UNIT(#442)
PLANE_ANGLE_UNIT()
);
#445=(
NAMED_UNIT(*)
PLANE_ANGLE_UNIT()
SI_UNIT($,.RADIAN.)
);
#446=PLANE_ANGLE_MEASURE_WITH_UNIT(PLANE_ANGLE_MEASURE(0.01745329252),#445);
#447=SHAPE_DEFINITION_REPRESENTATION(#448,#449);
#448=PRODUCT_DEFINITION_SHAPE('',$,#451);
#449=SHAPE_REPRESENTATION('',(#254),#436);
#450=PRODUCT_DEFINITION_CONTEXT('part definition',#455,'design');
#451=PRODUCT_DEFINITION('13571','13571',#452,#450);
#452=PRODUCT_DEFINITION_FORMATION('',$,#457);
#453=PRODUCT_RELATED_PRODUCT_CATEGORY('13571','13571',(#457));
#454=APPLICATION_PROTOCOL_DEFINITION('international standard',
'automotive_design',2009,#455);
#455=APPLICATION_CONTEXT(
'Core Data for Automotive Mechanical Design Process');
#456=PRODUCT_CONTEXT('part definition',#455,'mechanical');
#457=PRODUCT('13571','13571',$,(#456));
#458=PRESENTATION_STYLE_ASSIGNMENT((#459));
#459=SURFACE_STYLE_USAGE(.BOTH.,#460);
#460=SURFACE_SIDE_STYLE($,(#461));
#461=SURFACE_STYLE_FILL_AREA(#462);
#462=FILL_AREA_STYLE($,(#463));
#463=FILL_AREA_STYLE_COLOUR($,#464);
#464=COLOUR_RGB('',0.996078431372549,0.996078431372549,1.);
ENDSEC;
END-ISO-10303-21;
